  0
SECTION
  2
HEADER
  9
$ACADVER
  1
AC1015
  9
$ACADMAINTVER
 70
     6
  9
$DWGCODEPAGE
  3
ANSI_1254
  9
$INSBASE
 10
0.0
 20
0.0
 30
0.0
  9
$EXTMIN
 10
0.0
 20
0.0
 30
0.0
  9
$EXTMAX
 10
279.4
 20
215.9
 30
0.0
  9
$LIMMIN
 10
0.0
 20
0.0
  9
$LIMMAX
 10
279.4
 20
215.9
  9
$ORTHOMODE
 70
     0
  9
$REGENMODE
 70
     1
  9
$FILLMODE
 70
     1
  9
$QTEXTMODE
 70
     0
  9
$MIRRTEXT
 70
     1
  9
$LTSCALE
 40
1.0
  9
$ATTMODE
 70
     1
  9
$TEXTSIZE
 40
3.5
  9
$TRACEWID
 40
1.0
  9
$TEXTSTYLE
  7
Standard
  9
$CLAYER
  8
0
  9
$CELTYPE
  6
ByLayer
  9
$CECOLOR
 62
   256
  9
$CELTSCALE
 40
1.0
  9
$DISPSILH
 70
     0
  9
$DIMSCALE
 40
1.0
  9
$DIMASZ
 40
3.5
  9
$DIMEXO
 40
1.0
  9
$DIMDLI
 40
3.75
  9
$DIMRND
 40
0.0
  9
$DIMDLE
 40
0.0
  9
$DIMEXE
 40
1.0
  9
$DIMTP
 40
0.0
  9
$DIMTM
 40
0.0
  9
$DIMTXT
 40
3.5
  9
$DIMCEN
 40
2.5
  9
$DIMTSZ
 40
0.0
  9
$DIMTOL
 70
     0
  9
$DIMLIM
 70
     0
  9
$DIMTIH
 70
     1
  9
$DIMTOH
 70
     1
  9
$DIMSE1
 70
     0
  9
$DIMSE2
 70
     0
  9
$DIMTAD
 70
     1
  9
$DIMZIN
 70
     0
  9
$DIMBLK
  1

  9
$DIMASO
 70
     1
  9
$DIMSHO
 70
     1
  9
$DIMPOST
  1

  9
$DIMAPOST
  1

  9
$DIMALT
 70
     0
  9
$DIMALTD
 70
     3
  9
$DIMALTF
 40
0.0393700787
  9
$DIMLFAC
 40
1.0
  9
$DIMTOFL
 70
     1
  9
$DIMTVP
 40
0.0
  9
$DIMTIX
 70
     0
  9
$DIMSOXD
 70
     0
  9
$DIMSAH
 70
     0
  9
$DIMBLK1
  1

  9
$DIMBLK2
  1

  9
$DIMSTYLE
  2
ISO-25
  9
$DIMCLRD
 70
     0
  9
$DIMCLRE
 70
     0
  9
$DIMCLRT
 70
     0
  9
$DIMTFAC
 40
1.0
  9
$DIMGAP
 40
1.524
  9
$DIMJUST
 70
     0
  9
$DIMSD1
 70
     0
  9
$DIMSD2
 70
     0
  9
$DIMTOLJ
 70
     0
  9
$DIMTZIN
 70
     0
  9
$DIMALTZ
 70
     0
  9
$DIMALTTZ
 70
     0
  9
$DIMUPT
 70
     0
  9
$DIMDEC
 70
     2
  9
$DIMTDEC
 70
     2
  9
$DIMALTU
 70
     2
  9
$DIMALTTD
 70
     3
  9
$DIMTXSTY
  7
Standard
  9
$DIMAUNIT
 70
     0
  9
$DIMADEC
 70
     2
  9
$DIMALTRND
 40
0.0
  9
$DIMAZIN
 70
     0
  9
$DIMDSEP
 70
    44
  9
$DIMATFIT
 70
     3
  9
$DIMFRAC
 70
     0
  9
$DIMLDRBLK
  1

  9
$DIMLUNIT
 70
     2
  9
$DIMLWD
 70
    -2
  9
$DIMLWE
 70
    -2
  9
$DIMTMOVE
 70
     0
  9
$LUNITS
 70
     2
  9
$LUPREC
 70
     2
  9
$SKETCHINC
 40
1.0
  9
$FILLETRAD
 40
10.0
  9
$AUNITS
 70
     0
  9
$AUPREC
 70
     2
  9
$MENU
  1
.
  9
$ELEVATION
 40
0.0
  9
$PELEVATION
 40
0.0
  9
$THICKNESS
 40
0.0
  9
$LIMCHECK
 70
     0
  9
$CHAMFERA
 40
0.0
  9
$CHAMFERB
 40
0.0
  9
$CHAMFERC
 40
0.0
  9
$CHAMFERD
 40
0.0
  9
$SKPOLY
 70
     0
  9
$TDCREATE
 40
2459935.699379514
  9
$TDUCREATE
 40
2459935.574379514
  9
$TDUPDATE
 40
2459935.699379699
  9
$TDUUPDATE
 40
2459935.574379699
  9
$TDINDWG
 40
0.0000000116
  9
$TDUSRTIMER
 40
0.0000000116
  9
$USRTIMER
 70
     1
  9
$ANGBASE
 50
0.0
  9
$ANGDIR
 70
     0
  9
$PDMODE
 70
     0
  9
$PDSIZE
 40
-1.0
  9
$PLINEWID
 40
0.0
  9
$SPLFRAME
 70
     0
  9
$SPLINETYPE
 70
     6
  9
$SPLINESEGS
 70
     8
  9
$HANDSEED
  5
ED
  9
$SURFTAB1
 70
     6
  9
$SURFTAB2
 70
     6
  9
$SURFTYPE
 70
     6
  9
$SURFU
 70
     6
  9
$SURFV
 70
     6
  9
$UCSBASE
  2

  9
$UCSNAME
  2

  9
$UCSORG
 10
0.0
 20
0.0
 30
0.0
  9
$UCSXDIR
 10
1.0
 20
0.0
 30
0.0
  9
$UCSYDIR
 10
0.0
 20
1.0
 30
0.0
  9
$UCSORTHOREF
  2

  9
$UCSORTHOVIEW
 70
     0
  9
$UCSORGTOP
 10
0.0
 20
0.0
 30
0.0
  9
$UCSORGBOTTOM
 10
0.0
 20
0.0
 30
0.0
  9
$UCSORGLEFT
 10
0.0
 20
0.0
 30
0.0
  9
$UCSORGRIGHT
 10
0.0
 20
0.0
 30
0.0
  9
$UCSORGFRONT
 10
0.0
 20
0.0
 30
0.0
  9
$UCSORGBACK
 10
0.0
 20
0.0
 30
0.0
  9
$PUCSBASE
  2

  9
$PUCSNAME
  2

  9
$PUCSORG
 10
0.0
 20
0.0
 30
0.0
  9
$PUCSXDIR
 10
1.0
 20
0.0
 30
0.0
  9
$PUCSYDIR
 10
0.0
 20
1.0
 30
0.0
  9
$PUCSORTHOREF
  2

  9
$PUCSORTHOVIEW
 70
     0
  9
$PUCSORGTOP
 10
0.0
 20
0.0
 30
0.0
  9
$PUCSORGBOTTOM
 10
0.0
 20
0.0
 30
0.0
  9
$PUCSORGLEFT
 10
0.0
 20
0.0
 30
0.0
  9
$PUCSORGRIGHT
 10
0.0
 20
0.0
 30
0.0
  9
$PUCSORGFRONT
 10
0.0
 20
0.0
 30
0.0
  9
$PUCSORGBACK
 10
0.0
 20
0.0
 30
0.0
  9
$USERI1
 70
     0
  9
$USERI2
 70
     0
  9
$USERI3
 70
     0
  9
$USERI4
 70
     0
  9
$USERI5
 70
     0
  9
$USERR1
 40
0.0
  9
$USERR2
 40
0.0
  9
$USERR3
 40
0.0
  9
$USERR4
 40
0.0
  9
$USERR5
 40
0.0
  9
$WORLDVIEW
 70
     1
  9
$SHADEDGE
 70
     3
  9
$SHADEDIF
 70
    70
  9
$TILEMODE
 70
     1
  9
$MAXACTVP
 70
    64
  9
$PINSBASE
 10
0.0
 20
0.0
 30
0.0
  9
$PLIMCHECK
 70
     0
  9
$PEXTMIN
 10
1.0000000000E+20
 20
1.0000000000E+20
 30
1.0000000000E+20
  9
$PEXTMAX
 10
-1.0000000000E+20
 20
-1.0000000000E+20
 30
-1.0000000000E+20
  9
$PLIMMIN
 10
0.0
 20
0.0
  9
$PLIMMAX
 10
420.0
 20
297.0
  9
$UNITMODE
 70
     0
  9
$VISRETAIN
 70
     1
  9
$PLINEGEN
 70
     0
  9
$PSLTSCALE
 70
     1
  9
$TREEDEPTH
 70
  3020
  9
$CMLSTYLE
  2
Standard
  9
$CMLJUST
 70
     0
  9
$CMLSCALE
 40
20.0
  9
$PROXYGRAPHICS
 70
     1
  9
$MEASUREMENT
 70
     1
  9
$CELWEIGHT
370
    -1
  9
$ENDCAPS
280
     0
  9
$JOINSTYLE
280
     0
  9
$LWDISPLAY
290
     1
  9
$INSUNITS
 70
     4
  9
$HYPERLINKBASE
  1

  9
$STYLESHEET
  1

  9
$XEDIT
290
     1
  9
$CEPSNTYPE
380
     0
  9
$PSTYLEMODE
290
     1
  9
$FINGERPRINTGUID
  2
{d8670001-5605-4b98-a4f9-f9ab83a110c7}
  9
$VERSIONGUID
  2
{FAEB1C32-E019-11D5-929B-00C0DF256EC4}
  9
$EXTNAMES
290
     1
  9
$PSVPSCALE
 40
0.0
  9
$OLESTARTUP
290
     0
  0
ENDSEC
  0
SECTION
  2
CLASSES
  0
CLASS
  1
ACDBDICTIONARYWDFLT
  2
AcDbDictionaryWithDefault
  3
ObjectDBX Classes
 90
        0
280
     0
281
     0
  0
CLASS
  1
VISUALSTYLE
  2
AcDbVisualStyle
  3
ObjectDBX Classes
 90
     4095
280
     0
281
     0
  0
CLASS
  1
MATERIAL
  2
AcDbMaterial
  3
ObjectDBX Classes
 90
     1153
280
     0
281
     0
  0
CLASS
  1
SCALE
  2
AcDbScale
  3
ObjectDBX Classes
 90
     1153
280
     0
281
     0
  0
CLASS
  1
TABLESTYLE
  2
AcDbTableStyle
  3
ObjectDBX Classes
 90
     4095
280
     0
281
     0
  0
CLASS
  1
MLEADERSTYLE
  2
AcDbMLeaderStyle
  3
ACDB_MLEADERSTYLE_CLASS
 90
     4095
280
     0
281
     0
  0
CLASS
  1
SUN
  2
AcDbSun
  3
SCENEOE
 90
     1153
280
     0
281
     0
  0
CLASS
  1
ACDBPLACEHOLDER
  2
AcDbPlaceHolder
  3
ObjectDBX Classes
 90
        0
280
     0
281
     0
  0
CLASS
  1
LAYOUT
  2
AcDbLayout
  3
ObjectDBX Classes
 90
        0
280
     0
281
     0
  0
ENDSEC
  0
SECTION
  2
TABLES
  0
TABLE
  2
VPORT
  5
8
330
0
100
AcDbSymbolTable
 70
     1
  0
VPORT
  5
29
330
8
100
AcDbSymbolTableRecord
100
AcDbViewportTableRecord
  2
*Active
 70
     0
 10
0.0
 20
0.0
 11
1.0
 21
1.0
 12
139.7
 22
107.95
 13
0.0
 23
0.0
 14
10.0
 24
10.0
 15
10.0
 25
10.0
 16
0.0
 26
0.0
 36
1.0
 17
0.0
 27
0.0
 37
0.0
 40
215.9
 41
1.2941176471
 42
50.0
 43
0.0
 44
0.0
 50
0.0
 51
0.0
 71
     0
 72
  2000
 73
     1
 74
     3
 75
     0
 76
     0
 77
     0
 78
     0
281
     0
 65
     1
110
0.0
120
0.0
130
0.0
111
1.0
121
0.0
131
0.0
112
0.0
122
1.0
132
0.0
 79
     0
146
0.0
  0
ENDTAB
  0
TABLE
  2
LTYPE
  5
5
330
0
100
AcDbSymbolTable
 70
     6
  0
LTYPE
  5
14
330
5
100
AcDbSymbolTableRecord
100
AcDbLinetypeTableRecord
  2
ByBlock
 70
     0
  3

 72
    65
 73
     0
 40
0.0
  0
LTYPE
  5
15
330
5
100
AcDbSymbolTableRecord
100
AcDbLinetypeTableRecord
  2
ByLayer
 70
     0
  3

 72
    65
 73
     0
 40
0.0
  0
LTYPE
  5
16
330
5
100
AcDbSymbolTableRecord
100
AcDbLinetypeTableRecord
  2
Continuous
 70
     0
  3
Solid line
 72
    65
 73
     0
 40
0.0
  0
LTYPE
  5
6E
330
5
100
AcDbSymbolTableRecord
100
AcDbLinetypeTableRecord
  2
HIDDEN
 70
     0
  3
Hidden __ __ __ __ __ __ __ __ __ __ __ __ __ __
 72
    65
 73
     2
 40
1.905
 49
1.27
 74
     0
 49
-0.635
 74
     0
  0
LTYPE
  5
6F
330
5
100
AcDbSymbolTableRecord
100
AcDbLinetypeTableRecord
  2
PHANTOM
 70
     0
  3
Phantom ______  __  __  ______  __  __  ______
 72
    65
 73
     6
 40
12.7
 49
6.35
 74
     0
 49
-1.27
 74
     0
 49
1.27
 74
     0
 49
-1.27
 74
     0
 49
1.27
 74
     0
 49
-1.27
 74
     0
  0
LTYPE
  5
70
330
5
100
AcDbSymbolTableRecord
100
AcDbLinetypeTableRecord
  2
CENTER
 70
     0
  3
Center ____ _ ____ _ ____ _ ____ _ ____ _ ____
 72
    65
 73
     4
 40
10.16
 49
6.35
 74
     0
 49
-1.27
 74
     0
 49
1.27
 74
     0
 49
-1.27
 74
     0
  0
LTYPE
  5
71
330
5
100
AcDbSymbolTableRecord
100
AcDbLinetypeTableRecord
  2
CENTERX2
 70
     0
  3
Center (2x) ________  __  ________  __  _____
 72
    65
 73
     4
 40
20.32
 49
12.7
 74
     0
 49
-2.54
 74
     0
 49
2.54
 74
     0
 49
-2.54
 74
     0
  0
LTYPE
  5
72
330
5
100
AcDbSymbolTableRecord
100
AcDbLinetypeTableRecord
  2
DOT2
 70
     0
  3
Dot (.5x) ........................................
 72
    65
 73
     2
 40
0.635
 49
0.0
 74
     0
 49
-0.635
 74
     0
  0
ENDTAB
  0
TABLE
  2
LAYER
  5
2
330
0
100
AcDbSymbolTable
 70
    17
  0
LAYER
  5
10
330
2
100
AcDbSymbolTableRecord
100
AcDbLayerTableRecord
  2
0
 70
     0
 62
     7
  6
Continuous
370
    -3
390
F
  0
LAYER
  5
73
330
2
100
AcDbSymbolTableRecord
100
AcDbLayerTableRecord
  2
FORMAT
 70
     0
 62
     7
  6
Continuous
370
    -3
390
F
  0
LAYER
  5
74
330
2
100
AcDbSymbolTableRecord
100
AcDbLayerTableRecord
  2
YARDIMCI_GEOMETRI
 70
     0
 62
    -6
  6
Continuous
290
     0
370
    -3
390
F
  0
LAYER
  5
75
330
2
100
AcDbSymbolTableRecord
100
AcDbLayerTableRecord
  2
SAYFA_CERCEVESI
 70
     0
 62
     7
  6
Continuous
370
    25
390
F
  0
LAYER
  5
76
330
2
100
AcDbSymbolTableRecord
100
AcDbLayerTableRecord
  2
ANTET
 70
     0
 62
     7
  6
Continuous
370
    -3
390
F
  0
LAYER
  5
77
330
2
100
AcDbSymbolTableRecord
100
AcDbLayerTableRecord
  2
OLCU
 70
     0
 62
   150
  6
Continuous
370
    -3
390
F
  0
LAYER
  5
78
330
2
100
AcDbSymbolTableRecord
100
AcDbLayerTableRecord
  2
METIN
 70
     0
 62
    96
  6
Continuous
370
    -3
390
F
  0
LAYER
  5
79
330
2
100
AcDbSymbolTableRecord
100
AcDbLayerTableRecord
  2
BALON
 70
     0
 62
     5
  6
Continuous
370
    -3
390
F
  0
LAYER
  5
7A
330
2
100
AcDbSymbolTableRecord
100
AcDbLayerTableRecord
  2
VURGU
 70
     0
 62
     7
  6
Continuous
370
    -3
390
F
  0
LAYER
  5
7B
330
2
100
AcDbSymbolTableRecord
100
AcDbLayerTableRecord
  2
SILIK
 70
     0
 62
     7
  6
Continuous
370
    -3
390
F
  0
LAYER
  5
7C
330
2
100
AcDbSymbolTableRecord
100
AcDbLayerTableRecord
  2
MODEL
 70
     0
 62
     7
  6
Continuous
370
    -3
390
F
  0
LAYER
  5
7D
330
2
100
AcDbSymbolTableRecord
100
AcDbLayerTableRecord
  2
DETAYLANDıRMA
 70
     0
 62
   190
  6
Continuous
370
    -3
390
F
  0
LAYER
  5
7E
330
2
100
AcDbSymbolTableRecord
100
AcDbLayerTableRecord
  2
TOLERANS
 70
     0
 62
   230
  6
Continuous
370
    -3
390
F
  0
LAYER
  5
7F
330
2
100
AcDbSymbolTableRecord
100
AcDbLayerTableRecord
  2
MERKEZ_CIZGILERI
 70
     0
 62
    30
  6
Continuous
370
    -3
390
F
  0
LAYER
  5
80
330
2
100
AcDbSymbolTableRecord
100
AcDbLayerTableRecord
  2
KESIT-DETAY_CIZGILERI
 70
     0
 62
     7
  6
Continuous
370
    -3
390
F
  0
LAYER
  5
81
330
2
100
AcDbSymbolTableRecord
100
AcDbLayerTableRecord
  2
\U+041E\U+0421\U+0415\U+0412\U+042B\U+0415
 70
     0
 62
     7
  6
Continuous
370
    -3
390
F
  0
LAYER
  5
82
330
2
100
AcDbSymbolTableRecord
100
AcDbLayerTableRecord
  2
\U+0412\U+041E\U+0414\U+042F\U+041D\U+042B\U+0415_\U+0417\U+041D\U+0410\U+041A\U+0418
 70
     0
 62
    11
  6
Continuous
370
    -3
390
F
  0
ENDTAB
  0
TABLE
  2
STYLE
  5
3
330
0
100
AcDbSymbolTable
 70
     1
  0
STYLE
  5
11
330
3
100
AcDbSymbolTableRecord
100
AcDbTextStyleTableRecord
  2
Standard
 70
     0
 40
0.0
 41
1.0
 50
0.0
 71
     0
 42
3.5
  3
txt
  4

  0
ENDTAB
  0
TABLE
  2
VIEW
  5
6
330
0
100
AcDbSymbolTable
 70
     0
  0
ENDTAB
  0
TABLE
  2
UCS
  5
7
330
0
100
AcDbSymbolTable
 70
     0
  0
ENDTAB
  0
TABLE
  2
APPID
  5
9
330
0
100
AcDbSymbolTable
 70
     1
  0
APPID
  5
12
330
9
100
AcDbSymbolTableRecord
100
AcDbRegAppTableRecord
  2
ACAD
 70
     0
  0
ENDTAB
  0
TABLE
  2
DIMSTYLE
  5
A
330
0
100
AcDbSymbolTable
 70
     1
100
AcDbDimStyleTable
  0
DIMSTYLE
105
27
330
A
100
AcDbSymbolTableRecord
100
AcDbDimStyleTableRecord
  2
ISO-25
 70
     0
 41
2.5
 42
0.625
 43
3.75
 44
1.25
 73
     0
 74
     0
 77
     1
 78
     8
140
2.5
141
2.5
143
0.0393700787
147
0.625
171
     3
172
     1
178
     0
271
     2
272
     2
274
     3
278
    44
283
     0
284
     8
340
11
  0
ENDTAB
  0
TABLE
  2
BLOCK_RECORD
  5
1
330
0
100
AcDbSymbolTable
 70
     5
  0
BLOCK_RECORD
  5
1F
330
1
100
AcDbSymbolTableRecord
100
AcDbBlockTableRecord
  2
*Model_Space
340
22
  0
BLOCK_RECORD
  5
1B
330
1
100
AcDbSymbolTableRecord
100
AcDbBlockTableRecord
  2
*Paper_Space
340
1E
  0
BLOCK_RECORD
  5
23
330
1
100
AcDbSymbolTableRecord
100
AcDbBlockTableRecord
  2
*Paper_Space0
340
26
  0
BLOCK_RECORD
  5
97
330
1
100
AcDbSymbolTableRecord
100
AcDbBlockTableRecord
  2
SW_CENTERMARKSYMBOL_0
340
0
102
{BLKREFS
331
A2
102
}
  0
BLOCK_RECORD
  5
AC
330
1
100
AcDbSymbolTableRecord
100
AcDbBlockTableRecord
  2
SW_CENTERMARKSYMBOL_1
340
0
102
{BLKREFS
331
B7
102
}
  0
BLOCK_RECORD
  5
BF
330
1
100
AcDbSymbolTableRecord
100
AcDbBlockTableRecord
  2
SW_CENTERMARKSYMBOL_2
340
0
102
{BLKREFS
331
CA
102
}
  0
BLOCK_RECORD
  5
D2
330
1
100
AcDbSymbolTableRecord
100
AcDbBlockTableRecord
  2
SW_CENTERMARKSYMBOL_3
340
0
102
{BLKREFS
331
DD
102
}
  0
ENDTAB
  0
ENDSEC
  0
SECTION
  2
BLOCKS
  0
BLOCK
  5
20
330
1F
100
AcDbEntity
  8
0
100
AcDbBlockBegin
  2
*Model_Space
 70
     0
 10
0.0
 20
0.0
 30
0.0
  3
*Model_Space
  1

  0
ENDBLK
  5
21
330
1F
100
AcDbEntity
  8
0
100
AcDbBlockEnd
  0
BLOCK
  5
1C
330
1B
100
AcDbEntity
 67
     1
  8
0
100
AcDbBlockBegin
  2
*Paper_Space
 70
     0
 10
0.0
 20
0.0
 30
0.0
  3
*Paper_Space
  1

  0
ENDBLK
  5
1D
330
1B
100
AcDbEntity
 67
     1
  8
0
100
AcDbBlockEnd
  0
BLOCK
  5
24
330
23
100
AcDbEntity
  8
0
100
AcDbBlockBegin
  2
*Paper_Space0
 70
     0
 10
0.0
 20
0.0
 30
0.0
  3
*Paper_Space0
  1

  0
ENDBLK
  5
25
330
23
100
AcDbEntity
  8
0
100
AcDbBlockEnd
  0
BLOCK
  5
98
330
97
100
AcDbEntity
  8
0
100
AcDbBlockBegin
  2
SW_CENTERMARKSYMBOL_0
 70
     0
 10
0.0
 20
0.0
 30
0.0
  3
SW_CENTERMARKSYMBOL_0
  1

  0
LINE
  5
9A
330
97
100
AcDbEntity
  8
FORMAT
 62
     0
100
AcDbLine
 10
0.0
 20
0.0
 30
0.0
 11
0.0
 21
2.5
 31
0.0
  0
LINE
  5
9B
330
97
100
AcDbEntity
  8
FORMAT
 62
     0
100
AcDbLine
 10
0.0
 20
0.0
 30
0.0
 11
-2.5
 21
0.0
 31
0.0
  0
LINE
  5
9C
330
97
100
AcDbEntity
  8
FORMAT
 62
     0
100
AcDbLine
 10
0.0
 20
0.0
 30
0.0
 11
0.0
 21
-2.5
 31
0.0
  0
LINE
  5
9D
330
97
100
AcDbEntity
  8
FORMAT
 62
     0
100
AcDbLine
 10
0.0
 20
0.0
 30
0.0
 11
2.5
 21
0.0
 31
0.0
  0
LINE
  5
9E
330
97
100
AcDbEntity
  8
FORMAT
 62
     0
100
AcDbLine
 10
0.0
 20
5.0
 30
0.0
 11
0.0
 21
82.5
 31
0.0
  0
LINE
  5
9F
330
97
100
AcDbEntity
  8
FORMAT
 62
     0
100
AcDbLine
 10
-5.0
 20
0.0
 30
0.0
 11
-82.5
 21
0.0
 31
0.0
  0
LINE
  5
A0
330
97
100
AcDbEntity
  8
FORMAT
 62
     0
100
AcDbLine
 10
0.0
 20
-5.0
 30
0.0
 11
0.0
 21
-82.5
 31
0.0
  0
LINE
  5
A1
330
97
100
AcDbEntity
  8
FORMAT
 62
     0
100
AcDbLine
 10
5.0
 20
0.0
 30
0.0
 11
82.5
 21
0.0
 31
0.0
  0
ENDBLK
  5
99
330
97
100
AcDbEntity
  8
0
100
AcDbBlockEnd
  0
BLOCK
  5
AD
330
AC
100
AcDbEntity
  8
0
100
AcDbBlockBegin
  2
SW_CENTERMARKSYMBOL_1
 70
     0
 10
0.0
 20
0.0
 30
0.0
  3
SW_CENTERMARKSYMBOL_1
  1

  0
LINE
  5
AF
330
AC
100
AcDbEntity
  8
FORMAT
 62
     0
100
AcDbLine
 10
0.0
 20
0.0
 30
0.0
 11
0.0
 21
2.5
 31
0.0
  0
LINE
  5
B0
330
AC
100
AcDbEntity
  8
FORMAT
 62
     0
100
AcDbLine
 10
0.0
 20
0.0
 30
0.0
 11
-2.5
 21
0.0
 31
0.0
  0
LINE
  5
B1
330
AC
100
AcDbEntity
  8
FORMAT
 62
     0
100
AcDbLine
 10
0.0
 20
0.0
 30
0.0
 11
0.0
 21
-2.5
 31
0.0
  0
LINE
  5
B2
330
AC
100
AcDbEntity
  8
FORMAT
 62
     0
100
AcDbLine
 10
0.0
 20
0.0
 30
0.0
 11
2.5
 21
0.0
 31
0.0
  0
LINE
  5
B3
330
AC
100
AcDbEntity
  8
FORMAT
 62
     0
100
AcDbLine
 10
0.0
 20
5.0
 30
0.0
 11
0.0
 21
82.5
 31
0.0
  0
LINE
  5
B4
330
AC
100
AcDbEntity
  8
FORMAT
 62
     0
100
AcDbLine
 10
-5.0
 20
0.0
 30
0.0
 11
-82.5
 21
0.0
 31
0.0
  0
LINE
  5
B5
330
AC
100
AcDbEntity
  8
FORMAT
 62
     0
100
AcDbLine
 10
0.0
 20
-5.0
 30
0.0
 11
0.0
 21
-82.5
 31
0.0
  0
LINE
  5
B6
330
AC
100
AcDbEntity
  8
FORMAT
 62
     0
100
AcDbLine
 10
5.0
 20
0.0
 30
0.0
 11
82.5
 21
0.0
 31
0.0
  0
ENDBLK
  5
AE
330
AC
100
AcDbEntity
  8
0
100
AcDbBlockEnd
  0
BLOCK
  5
C0
330
BF
100
AcDbEntity
  8
0
100
AcDbBlockBegin
  2
SW_CENTERMARKSYMBOL_2
 70
     0
 10
0.0
 20
0.0
 30
0.0
  3
SW_CENTERMARKSYMBOL_2
  1

  0
LINE
  5
C2
330
BF
100
AcDbEntity
  8
FORMAT
 62
     0
100
AcDbLine
 10
0.0
 20
0.0
 30
0.0
 11
0.0
 21
2.5
 31
0.0
  0
LINE
  5
C3
330
BF
100
AcDbEntity
  8
FORMAT
 62
     0
100
AcDbLine
 10
0.0
 20
0.0
 30
0.0
 11
-2.5
 21
0.0
 31
0.0
  0
LINE
  5
C4
330
BF
100
AcDbEntity
  8
FORMAT
 62
     0
100
AcDbLine
 10
0.0
 20
0.0
 30
0.0
 11
0.0
 21
-2.5
 31
0.0
  0
LINE
  5
C5
330
BF
100
AcDbEntity
  8
FORMAT
 62
     0
100
AcDbLine
 10
0.0
 20
0.0
 30
0.0
 11
2.5
 21
0.0
 31
0.0
  0
LINE
  5
C6
330
BF
100
AcDbEntity
  8
FORMAT
 62
     0
100
AcDbLine
 10
0.0
 20
5.0
 30
0.0
 11
0.0
 21
82.5
 31
0.0
  0
LINE
  5
C7
330
BF
100
AcDbEntity
  8
FORMAT
 62
     0
100
AcDbLine
 10
-5.0
 20
0.0
 30
0.0
 11
-82.5
 21
0.0
 31
0.0
  0
LINE
  5
C8
330
BF
100
AcDbEntity
  8
FORMAT
 62
     0
100
AcDbLine
 10
0.0
 20
-5.0
 30
0.0
 11
0.0
 21
-82.5
 31
0.0
  0
LINE
  5
C9
330
BF
100
AcDbEntity
  8
FORMAT
 62
     0
100
AcDbLine
 10
5.0
 20
0.0
 30
0.0
 11
82.5
 21
0.0
 31
0.0
  0
ENDBLK
  5
C1
330
BF
100
AcDbEntity
  8
0
100
AcDbBlockEnd
  0
BLOCK
  5
D3
330
D2
100
AcDbEntity
  8
0
100
AcDbBlockBegin
  2
SW_CENTERMARKSYMBOL_3
 70
     0
 10
0.0
 20
0.0
 30
0.0
  3
SW_CENTERMARKSYMBOL_3
  1

  0
LINE
  5
D5
330
D2
100
AcDbEntity
  8
FORMAT
 62
     0
100
AcDbLine
 10
0.0
 20
0.0
 30
0.0
 11
0.0
 21
2.5
 31
0.0
  0
LINE
  5
D6
330
D2
100
AcDbEntity
  8
FORMAT
 62
     0
100
AcDbLine
 10
0.0
 20
0.0
 30
0.0
 11
-2.5
 21
0.0
 31
0.0
  0
LINE
  5
D7
330
D2
100
AcDbEntity
  8
FORMAT
 62
     0
100
AcDbLine
 10
0.0
 20
0.0
 30
0.0
 11
0.0
 21
-2.5
 31
0.0
  0
LINE
  5
D8
330
D2
100
AcDbEntity
  8
FORMAT
 62
     0
100
AcDbLine
 10
0.0
 20
0.0
 30
0.0
 11
2.5
 21
0.0
 31
0.0
  0
LINE
  5
D9
330
D2
100
AcDbEntity
  8
FORMAT
 62
     0
100
AcDbLine
 10
0.0
 20
5.0
 30
0.0
 11
0.0
 21
82.5
 31
0.0
  0
LINE
  5
DA
330
D2
100
AcDbEntity
  8
FORMAT
 62
     0
100
AcDbLine
 10
-5.0
 20
0.0
 30
0.0
 11
-82.5
 21
0.0
 31
0.0
  0
LINE
  5
DB
330
D2
100
AcDbEntity
  8
FORMAT
 62
     0
100
AcDbLine
 10
0.0
 20
-5.0
 30
0.0
 11
0.0
 21
-82.5
 31
0.0
  0
LINE
  5
DC
330
D2
100
AcDbEntity
  8
FORMAT
 62
     0
100
AcDbLine
 10
5.0
 20
0.0
 30
0.0
 11
82.5
 21
0.0
 31
0.0
  0
ENDBLK
  5
D4
330
D2
100
AcDbEntity
  8
0
100
AcDbBlockEnd
  0
ENDSEC
  0
SECTION
  2
ENTITIES
  0
LINE
  5
83
330
1F
100
AcDbEntity
  8
0
  6
Continuous
 62
     7
370
    25
100
AcDbLine
 10
4.2064925226
 20
86.5208922658
 30
0.0
 11
4.2064925226
 21
-38.4791077342
 31
0.0
  0
LINE
  5
84
330
1F
100
AcDbEntity
  8
0
  6
Continuous
 62
     7
370
    25
100
AcDbLine
 10
164.2064925226
 20
-38.4791077342
 30
0.0
 11
164.2064925226
 21
86.5208922658
 31
0.0
  0
ARC
  5
85
330
1F
100
AcDbEntity
  8
0
  6
Continuous
 62
     7
370
    25
100
AcDbCircle
 10
164.2064925226
 20
86.5208922658
 30
0.0
 40
160.0
100
AcDbArc
 50
90.0
 51
180.0
  0
LINE
  5
86
330
1F
100
AcDbEntity
  8
0
  6
Continuous
 62
     7
370
    25
100
AcDbLine
 10
289.2064925226
 20
246.5208922658
 30
0.0
 11
164.2064925226
 21
246.5208922658
 31
0.0
  0
LINE
  5
87
330
1F
100
AcDbEntity
  8
0
  6
Continuous
 62
     7
370
    25
100
AcDbLine
 10
164.2064925226
 20
86.5208922658
 30
0.0
 11
289.2064925226
 21
86.5208922658
 31
0.0
  0
LINE
  5
88
330
1F
100
AcDbEntity
  8
0
  6
Continuous
 62
     7
370
    25
100
AcDbLine
 10
84.2064925226
 20
-38.4791077342
 30
0.0
 11
164.2064925226
 21
-38.4791077342
 31
0.0
  0
LINE
  5
89
330
1F
100
AcDbEntity
  8
0
  6
Continuous
 62
     7
370
    25
100
AcDbLine
 10
4.2064925226
 20
-38.4791077342
 30
0.0
 11
84.2064925226
 21
-38.4791077342
 31
0.0
  0
LINE
  5
8A
330
1F
100
AcDbEntity
  8
0
  6
Continuous
 62
     7
370
    25
100
AcDbLine
 10
289.2064925226
 20
166.5208922658
 30
0.0
 11
289.2064925226
 21
86.5208922658
 31
0.0
  0
LINE
  5
8B
330
1F
100
AcDbEntity
  8
0
  6
Continuous
 62
     7
370
    25
100
AcDbLine
 10
289.2064925226
 20
246.5208922658
 30
0.0
 11
289.2064925226
 21
166.5208922658
 31
0.0
  0
LINE
  5
8C
330
1F
100
AcDbEntity
  8
0
  6
Continuous
 62
     1
370
    25
100
AcDbLine
 10
4.2064925226
 20
86.5208922658
 30
0.0
 11
164.2064925226
 21
86.5208922658
 31
0.0
  0
LINE
  5
8D
330
1F
100
AcDbEntity
  8
0
  6
Continuous
 62
     1
370
    25
100
AcDbLine
 10
164.2064925226
 20
246.5208922658
 30
0.0
 11
164.2064925226
 21
86.5208922658
 31
0.0
  0
LINE
  5
8E
330
1F
100
AcDbEntity
  8
0
  6
Continuous
 62
     7
370
    25
100
AcDbLine
 10
-291.3963574286
 20
166.5208922658
 30
0.0
 11
-291.3963574286
 21
86.5208922658
 31
0.0
  0
LINE
  5
8F
330
1F
100
AcDbEntity
  8
0
  6
Continuous
 62
     7
370
    25
100
AcDbLine
 10
-131.3963574286
 20
86.5208922658
 30
0.0
 11
-131.3963574286
 21
166.5208922658
 31
0.0
  0
LINE
  5
90
330
1F
100
AcDbEntity
  8
0
  6
Continuous
 62
     7
370
    25
100
AcDbLine
 10
-291.3963574286
 20
86.5208922658
 30
0.0
 11
-291.3963574286
 21
-38.4791077342
 31
0.0
  0
LINE
  5
91
330
1F
100
AcDbEntity
  8
0
  6
Continuous
 62
     7
370
    25
100
AcDbLine
 10
-131.3963574286
 20
-38.4791077342
 30
0.0
 11
-131.3963574286
 21
86.5208922658
 31
0.0
  0
CIRCLE
  5
92
330
1F
100
AcDbEntity
  8
0
  6
Continuous
 62
     7
370
    25
100
AcDbCircle
 10
-211.3963574286
 20
166.5208922658
 30
0.0
 40
80.0
  0
CIRCLE
  5
93
330
1F
100
AcDbEntity
  8
0
  6
Continuous
 62
     7
370
    25
100
AcDbCircle
 10
-211.3963574286
 20
166.5208922658
 30
0.0
 40
65.39999999999998
  0
LINE
  5
94
330
1F
100
AcDbEntity
  8
0
  6
Continuous
 62
     7
370
    25
100
AcDbLine
 10
-291.3963574286
 20
-38.4791077342
 30
0.0
 11
-131.3963574286
 21
-38.4791077342
 31
0.0
  0
LINE
  5
95
330
1F
100
AcDbEntity
  8
0
  6
Continuous
 62
     1
370
    25
100
AcDbLine
 10
-211.3963574286
 20
86.5208922658
 30
0.0
 11
-131.3963574286
 21
86.5208922658
 31
0.0
  0
LINE
  5
96
330
1F
100
AcDbEntity
  8
0
  6
Continuous
 62
     1
370
    25
100
AcDbLine
 10
-291.3963574286
 20
86.5208922658
 30
0.0
 11
-211.3963574286
 21
86.5208922658
 31
0.0
  0
INSERT
  5
A2
330
1F
100
AcDbEntity
  8
FORMAT
 62
     7
100
AcDbBlockReference
  2
SW_CENTERMARKSYMBOL_0
 10
-211.3963574286
 20
166.5208922658
 30
0.0
  0
LINE
  5
A3
330
1F
100
AcDbEntity
  8
0
  6
Continuous
 62
     7
370
    25
100
AcDbLine
 10
289.2064925226
 20
489.1641847448
 30
0.0
 11
164.2064925226
 21
489.1641847448
 31
0.0
  0
LINE
  5
A4
330
1F
100
AcDbEntity
  8
0
  6
Continuous
 62
     7
370
    25
100
AcDbLine
 10
164.2064925226
 20
329.1641847448
 30
0.0
 11
289.2064925226
 21
329.1641847448
 31
0.0
  0
LINE
  5
A5
330
1F
100
AcDbEntity
  8
0
  6
Continuous
 62
     7
370
    25
100
AcDbLine
 10
164.2064925226
 20
489.1641847448
 30
0.0
 11
84.2064925226
 21
489.1641847448
 31
0.0
  0
LINE
  5
A6
330
1F
100
AcDbEntity
  8
0
  6
Continuous
 62
     7
370
    25
100
AcDbLine
 10
84.2064925226
 20
329.1641847448
 30
0.0
 11
164.2064925226
 21
329.1641847448
 31
0.0
  0
CIRCLE
  5
A7
330
1F
100
AcDbEntity
  8
0
  6
Continuous
 62
     7
370
    25
100
AcDbCircle
 10
84.2064925226
 20
409.1641847448
 30
0.0
 40
65.40000000000003
  0
CIRCLE
  5
A8
330
1F
100
AcDbEntity
  8
0
  6
Continuous
 62
     7
370
    25
100
AcDbCircle
 10
84.2064925226
 20
409.1641847448
 30
0.0
 40
80.00000000000006
  0
LINE
  5
A9
330
1F
100
AcDbEntity
  8
0
  6
Continuous
 62
     7
370
    25
100
AcDbLine
 10
289.2064925226
 20
489.1641847448
 30
0.0
 11
289.2064925226
 21
329.1641847448
 31
0.0
  0
LINE
  5
AA
330
1F
100
AcDbEntity
  8
0
  6
Continuous
 62
     1
370
    25
100
AcDbLine
 10
164.2064925226
 20
409.1641847448
 30
0.0
 11
164.2064925226
 21
329.1641847448
 31
0.0
  0
LINE
  5
AB
330
1F
100
AcDbEntity
  8
0
  6
Continuous
 62
     1
370
    25
100
AcDbLine
 10
164.2064925226
 20
489.1641847448
 30
0.0
 11
164.2064925226
 21
409.1641847448
 31
0.0
  0
INSERT
  5
B7
330
1F
100
AcDbEntity
  8
FORMAT
 62
     7
100
AcDbBlockReference
  2
SW_CENTERMARKSYMBOL_1
 10
84.2064925226
 20
409.1641847448
 30
0.0
  0
LINE
  5
B8
330
1F
100
AcDbEntity
  8
0
  6
Continuous
 62
     7
370
    25
100
AcDbLine
 10
410.1996261013
 20
86.5208922658
 30
0.0
 11
410.1996261013
 21
-38.4791077342
 31
0.0
  0
LINE
  5
B9
330
1F
100
AcDbEntity
  8
0
  6
Continuous
 62
     7
370
    25
100
AcDbLine
 10
570.1996261013
 20
-38.4791077342
 30
0.0
 11
570.1996261013
 21
86.5208922658
 31
0.0
  0
LINE
  5
BA
330
1F
100
AcDbEntity
  8
0
  6
Continuous
 62
     7
370
    25
100
AcDbLine
 10
570.1996261013
 20
86.5208922658
 30
0.0
 11
570.1996261013
 21
166.5208922658
 31
0.0
  0
LINE
  5
BB
330
1F
100
AcDbEntity
  8
0
  6
Continuous
 62
     7
370
    25
100
AcDbLine
 10
410.1996261013
 20
166.5208922658
 30
0.0
 11
410.1996261013
 21
86.5208922658
 31
0.0
  0
LINE
  5
BC
330
1F
100
AcDbEntity
  8
0
  6
Continuous
 62
     7
370
    25
100
AcDbLine
 10
410.1996261013
 20
-38.4791077342
 30
0.0
 11
570.1996261013
 21
-38.4791077342
 31
0.0
  0
ARC
  5
BD
330
1F
100
AcDbEntity
  8
0
  6
Continuous
 62
     7
370
    25
100
AcDbCircle
 10
490.1996261013
 20
166.5208922658
 30
0.0
 40
80.0
100
AcDbArc
 50
0.0
 51
180.0
  0
LINE
  5
BE
330
1F
100
AcDbEntity
  8
0
  6
Continuous
 62
     1
370
    25
100
AcDbLine
 10
410.1996261013
 20
86.5208922658
 30
0.0
 11
570.1996261013
 21
86.5208922658
 31
0.0
  0
INSERT
  5
CA
330
1F
100
AcDbEntity
  8
FORMAT
 62
     7
100
AcDbBlockReference
  2
SW_CENTERMARKSYMBOL_2
 10
490.1996261013
 20
166.5208922658
 30
0.0
  0
LINE
  5
CB
330
1F
100
AcDbEntity
  8
0
  6
Continuous
 62
     7
370
    25
100
AcDbLine
 10
84.2064925226
 20
-372.8993657444
 30
0.0
 11
164.2064925226
 21
-372.8993657444
 31
0.0
  0
LINE
  5
CC
330
1F
100
AcDbEntity
  8
0
  6
Continuous
 62
     7
370
    25
100
AcDbLine
 10
164.2064925226
 20
-212.8993657444
 30
0.0
 11
84.2064925226
 21
-212.8993657444
 31
0.0
  0
LINE
  5
CD
330
1F
100
AcDbEntity
  8
0
  6
Continuous
 62
     7
370
    25
100
AcDbLine
 10
289.2064925226
 20
-212.8993657444
 30
0.0
 11
164.2064925226
 21
-212.8993657444
 31
0.0
  0
LINE
  5
CE
330
1F
100
AcDbEntity
  8
0
  6
Continuous
 62
     7
370
    25
100
AcDbLine
 10
164.2064925226
 20
-372.8993657444
 30
0.0
 11
289.2064925226
 21
-372.8993657444
 31
0.0
  0
ARC
  5
CF
330
1F
100
AcDbEntity
  8
0
  6
Continuous
 62
     7
370
    25
100
AcDbCircle
 10
84.2064925226
 20
-292.8993657444
 30
0.0
 40
80.00000000000003
100
AcDbArc
 50
90.0
 51
270.0
  0
LINE
  5
D0
330
1F
100
AcDbEntity
  8
0
  6
Continuous
 62
     7
370
    25
100
AcDbLine
 10
289.2064925226
 20
-212.8993657444
 30
0.0
 11
289.2064925226
 21
-372.8993657444
 31
0.0
  0
LINE
  5
D1
330
1F
100
AcDbEntity
  8
0
  6
Continuous
 62
     1
370
    25
100
AcDbLine
 10
164.2064925226
 20
-212.8993657444
 30
0.0
 11
164.2064925226
 21
-372.8993657444
 31
0.0
  0
INSERT
  5
DD
330
1F
100
AcDbEntity
  8
FORMAT
 62
     7
100
AcDbBlockReference
  2
SW_CENTERMARKSYMBOL_3
 10
84.2064925226
 20
-292.8993657444
 30
0.0
  0
LINE
  5
DE
330
1F
100
AcDbEntity
  8
0
  6
Continuous
 62
     7
370
    25
100
AcDbLine
 10
588.5821352403
 20
-104.3155169805
 30
0.0
 11
500.193787592
 21
-155.3410239694
 31
0.0
  0
LINE
  5
DF
330
1F
100
AcDbEntity
  8
0
  6
Continuous
 62
     7
370
    25
100
AcDbLine
 10
580.1872862029
 20
-293.9088419503
 30
0.0
 11
668.5756338512
 21
-242.8833349614
 31
0.0
  0
LINE
  5
E0
330
1F
100
AcDbEntity
  8
0
  6
Continuous
 62
     7
370
    25
100
AcDbLine
 10
403.6219944025
 20
-322.6045223836
 30
0.0
 11
403.6219944025
 21
-424.6721238693
 31
0.0
  0
LINE
  5
E1
330
1F
100
AcDbEntity
  8
0
  6
Continuous
 62
     7
370
    25
100
AcDbLine
 10
563.6219944025
 20
-424.6721238693
 30
0.0
 11
563.6219944025
 21
-322.6045223836
 31
0.0
  0
SPLINE
  5
E2
330
1F
100
AcDbEntity
  8
0
  6
Continuous
 62
     7
370
    25
100
AcDbSpline
210
0.0
220
0.0
230
1.0
 70
     8
 71
     3
 72
    39
 73
    35
 74
     0
 42
0.00000001
 43
0.00000001
 40
0.0
 40
0.0
 40
0.0
 40
0.0
 40
0.0208944138881321
 40
0.0530130729242828
 40
0.0852108496652126
 40
0.1175636187652636
 40
0.1500133579001106
 40
0.1825002336821178
 40
0.2149750745071647
 40
0.247406952921548
 40
0.2797753515738481
 40
0.3120695248401918
 40
0.3442872618666593
 40
0.3764334276257145
 40
0.408518512996685
 40
0.4405573231044203
 40
0.472567853359758
 40
0.5045703495647605
 40
0.5365865173153208
 40
0.5686340305695619
 40
0.6007328926031622
 40
0.6329054435588576
 40
0.6651729459929003
 40
0.6975547221171366
 40
0.7300670976856882
 40
0.7627221023587699
 40
0.7955259053647236
 40
0.8284770200850357
 40
0.861564401651244
 40
0.8947656891407402
 40
0.9280459892488736
 40
0.9613415968288833
 40
0.9921343178918963
 40
1.0
 40
1.0
 40
1.0
 40
1.0
 10
500.193787591977
 20
-155.3410239693882
 30
0.0
 10
499.0231703661431
 20
-156.0290178006904
 30
0.0
 10
496.0530934502839
 20
-157.7745880447542
 30
0.0
 10
491.3748329005202
 20
-160.7797573894771
 30
0.0
 10
486.1735187500846
 20
-164.3924243710134
 30
0.0
 10
481.0718112552303
 20
-168.2313097095874
 30
0.0
 10
476.0741420983709
 20
-172.2845603589788
 30
0.0
 10
471.1937414661971
 20
-176.5399413964127
 30
0.0
 10
466.4413052853469
 20
-180.9835082136372
 30
0.0
 10
461.8254891943252
 20
-185.602472494523
 30
0.0
 10
457.3529422296671
 20
-190.3850183407633
 30
0.0
 10
453.0290091612927
 20
-195.3202826538081
 30
0.0
 10
448.8580031851708
 20
-200.3983859167868
 30
0.0
 10
444.843508984742
 20
-205.6104198377279
 30
0.0
 10
440.9886546351864
 20
-210.9483679310488
 30
0.0
 10
437.2963448734183
 20
-216.4050029141205
 30
0.0
 10
433.7694511100779
 20
-221.9737748752827
 30
0.0
 10
430.410963248475
 20
-227.6487009640865
 30
0.0
 10
427.2242700059361
 20
-233.423970653093
 30
0.0
 10
424.2131394050259
 20
-239.293951701109
 30
0.0
 10
421.3816858645492
 20
-245.2532555890369
 30
0.0
 10
418.7343177244384
 20
-251.2969466349367
 30
0.0
 10
416.2759011658296
 20
-257.4202977190971
 30
0.0
 10
414.0119053934644
 20
-263.6184583073775
 30
0.0
 10
411.9484504664619
 20
-269.8862435266079
 30
0.0
 10
410.0923352512211
 20
-276.2178708232075
 30
0.0
 10
408.4510216377959
 20
-282.6066414282151
 30
0.0
 10
407.0325901071911
 20
-289.0445702488366
 30
0.0
 10
405.8455116683453
 20
-295.5220037551746
 30
0.0
 10
404.8987083380993
 20
-302.0272223964195
 30
0.0
 10
404.2001503374856
 20
-308.5452505611516
 30
0.0
 10
403.771246762994
 20
-314.8979309024002
 30
0.0
 10
403.6313593064518
 20
-319.5825309429119
 30
0.0
 10
403.6235776976224
 20
-322.0936037086217
 30
0.0
 10
403.6219944024958
 20
-322.604522383611
 30
0.0
  0
SPLINE
  5
E3
330
1F
100
AcDbEntity
  8
0
  6
Continuous
 62
     7
370
    25
100
AcDbSpline
210
0.0
220
0.0
230
1.0
 70
     8
 71
     3
 72
    33
 73
    29
 74
     0
 42
0.00000001
 43
0.00000001
 40
0.0
 40
0.0
 40
0.0
 40
0.0
 40
0.0333198210334222
 40
0.0736478713458559
 40
0.1128310564092813
 40
0.1512100692361631
 40
0.1890869159080721
 40
0.2267190062817344
 40
0.2643146451287846
 40
0.3020303198926574
 40
0.3399348008992677
 40
0.3780957477613178
 40
0.4165372563961509
 40
0.4552439622265466
 40
0.494169835182145
 40
0.5332485454476494
 40
0.5723955089721414
 40
0.6115227736039924
 40
0.6505793269201817
 40
0.6895459525005568
 40
0.7284458831653939
 40
0.7673535885413663
 40
0.8064009465736218
 40
0.8457252321923827
 40
0.885549727902399
 40
0.9261584060989284
 40
0.9678843855969664
 40
1.0
 40
1.0
 40
1.0
 40
1.0
 10
563.622147050144
 20
-322.6622256971173
 30
0.0
 10
563.6222161956194
 20
-322.6555806197182
 30
0.0
 10
563.6223690300862
 20
-322.640892791567
 30
0.0
 10
563.6471482311691
 20
-322.3227903900265
 30
0.0
 10
563.7166830777255
 20
-321.7714536171792
 30
0.0
 10
563.8471181099159
 20
-320.9905028544302
 30
0.0
 10
564.0526691847685
 20
-320.0032744105396
 30
0.0
 10
564.3459010119443
 20
-318.8237465219428
 30
0.0
 10
564.7369311242707
 20
-317.4709994737116
 30
0.0
 10
565.2330575956975
 20
-315.9665481998223
 30
0.0
 10
565.8383453003045
 20
-314.335111485019
 30
0.0
 10
566.5532729775292
 20
-312.6041470106349
 30
0.0
 10
567.3747368661175
 20
-310.8029666527793
 30
0.0
 10
568.2955774960349
 20
-308.9628990997414
 30
0.0
 10
569.304458293667
 20
-307.1165950476719
 30
0.0
 10
570.3858713575987
 20
-305.2972183321379
 30
0.0
 10
571.5203552150588
 20
-303.5374316580803
 30
0.0
 10
572.6852162587526
 20
-301.8678617721464
 30
0.0
 10
573.8554296748164
 20
-300.3157982149835
 30
0.0
 10
575.0045886008537
 20
-298.9042188473148
 30
0.0
 10
576.1055826690887
 20
-297.6514143349846
 30
0.0
 10
577.1312741894751
 20
-296.5707021906323
 30
0.0
 10
578.0549015914836
 20
-295.6706557131855
 30
0.0
 10
578.8499665724833
 20
-294.9553137332803
 30
0.0
 10
579.4943724425974
 20
-294.422019407089
 30
0.0
 10
579.956655390314
 20
-294.0706844289737
 30
0.0
 10
580.2234896029273
 20
-293.8881662004116
 30
0.0
 10
580.2304570486285
 20
-293.884261689016
 30
0.0
 10
580.2334873705337
 20
-293.8825635162683
 30
0.0
  0
LWPOLYLINE
  5
E4
330
1F
100
AcDbEntity
  8
0
  6
Continuous
 62
     7
370
    25
100
AcDbPolyline
 90
      104
 70
   128
 43
0.0
 10
572.0103420508
 20
-140.943101498
 10
572.1155613976
 20
-144.9862090701
 10
572.430828015
 20
-149.1357596884
 10
572.9549690905
 20
-153.3763167521
 10
573.6860347849
 20
-157.6921051103
 10
574.6213054857
 20
-162.0670697469
 10
575.7573019246
 20
-166.484935506
 10
577.0897981202
 20
-170.9292676371
 10
578.6138370992
 20
-175.3835329324
 10
580.3237493363
 20
-179.8311612328
 10
582.2131738458
 20
-184.2556070686
 10
584.2750818445
 20
-188.6404112108
 10
586.501802899
 20
-192.9692619001
 10
588.885053461
 20
-197.2260555275
 10
591.4159676816
 20
-201.3949565411
 10
594.0851303939
 20
-205.4604563554
 10
596.8826121371
 20
-209.4074310441
 10
599.7980060956
 20
-213.2211976019
 10
602.8204668122
 20
-216.887568567
 10
605.9387505346
 20
-220.3929047984
 10
609.1412570425
 20
-223.7241662152
 10
612.4160728014
 20
-226.868960306
 10
615.7510152816
 20
-229.8155882304
 10
619.133678278
 20
-232.5530883389
 10
622.551478062
 20
-235.0712769513
 10
625.9917001941
 20
-237.3607862405
 10
629.4415468219
 20
-239.4130990817
 10
632.8881842893
 20
-241.2205807363
 10
636.3187908787
 20
-242.7765072538
 10
639.7206045081
 20
-244.0750904853
 10
643.0809702075
 20
-245.111499616
 10
646.3873871957
 20
-245.8818791358
 10
649.6275553844
 20
-246.3833631822
 10
652.7894211351
 20
-246.6140862018
 10
655.8612220996
 20
-246.5731898898
 10
658.8315309764
 20
-246.260826383
 10
661.6892980215
 20
-245.6781576942
 10
664.4238921538
 20
-244.8273513893
 10
667.0251405035
 20
-243.7115725236
 10
669.4833662558
 20
-242.3349718678
 10
671.7894246496
 20
-240.7026704666
 10
673.9347369961
 20
-238.8207405885
 10
675.9113225925
 20
-236.6961831363
 10
677.7118284106
 20
-234.3369016033
 10
679.3295564504
 20
-231.7516726717
 10
680.7584886574
 20
-228.9501135628
 10
681.99330931
 20
-225.9426462607
 10
683.0294247942
 20
-222.7404587412
 10
683.8629806923
 20
-219.3554633522
 10
684.4908761217
 20
-215.8002524989
 10
684.9107752701
 20
-212.0880517991
 10
685.1211160851
 20
-208.2326708833
 10
685.1211160851
 20
-204.2484520217
 10
684.9107752701
 20
-200.1502167702
 10
684.4908761217
 20
-195.953210833
 10
683.8629806923
 20
-191.673047348
 10
683.0294247942
 20
-187.3256488043
 10
681.99330931
 20
-182.9271878102
 10
680.7584886574
 20
-178.4940269294
 10
679.3295564504
 20
-174.0426578115
 10
677.7118284106
 20
-169.5896398421
 10
675.9113225925
 20
-165.1515385404
 10
673.9347369961
 20
-160.7448639348
 10
671.7894246496
 20
-156.3860091443
 10
669.4833662558
 20
-152.091189395
 10
667.0251405035
 20
-147.8763816984
 10
664.4238921538
 20
-143.757265416
 10
661.6892980215
 20
-139.7491639309
 10
658.8315309764
 20
-135.8669876439
 10
655.8612220996
 20
-132.1251785057
 10
652.7894211351
 20
-128.5376562921
 10
649.6275553844
 20
-125.1177668214
 10
646.3873871957
 20
-121.8782323071
 10
643.0809702075
 20
-118.8311040302
 10
639.7206045081
 20
-115.9877175081
 10
636.3187908787
 20
-113.3586503255
 10
632.8881842893
 20
-110.9536827849
 10
629.4415468219
 20
-108.7817615235
 10
625.9917001941
 20
-106.8509662311
 10
622.551478062
 20
-105.168479593
 10
619.133678278
 20
-103.74056057
 10
615.7510152816
 20
-102.5725211146
 10
612.4160728014
 20
-101.6687064103
 10
609.1412570425
 20
-101.0324787073
 10
605.9387505346
 20
-100.6662048142
 10
602.8204668122
 20
-100.5712472942
 10
599.7980060956
 20
-100.7479593953
 10
596.8826121371
 20
-101.195683737
 10
594.0851303939
 20
-101.9127547553
 10
591.4159676816
 20
-102.8965048989
 10
588.885053461
 20
-104.1432745527
 10
586.501802899
 20
-105.6484256516
 10
584.2750818445
 20
-107.4063589348
 10
582.2131738458
 20
-109.4105347749
 10
580.3237493363
 20
-111.6534975062
 10
578.6138370992
 20
-114.1269031601
 10
577.0897981202
 20
-116.8215505049
 10
575.7573019246
 20
-119.7274152757
 10
574.6213054857
 20
-122.8336874645
 10
573.6860347849
 20
-126.128811535
 10
572.9549690905
 20
-129.600529409
 10
572.430828015
 20
-133.235926068
 10
572.1155613976
 20
-137.0214775978
 10
572.0103420508
 20
-140.943101498
  0
LWPOLYLINE
  5
E5
330
1F
100
AcDbEntity
  8
0
  6
Continuous
 62
     7
370
    25
100
AcDbPolyline
 90
       94
 70
   128
 43
0.0
 10
582.3341010561
 20
-146.9028807143
 10
582.4396032263
 20
-143.3586459072
 10
582.7556283546
 20
-139.9523928435
 10
583.2807344909
 20
-136.6996634747
 10
584.0125256963
 20
-133.6152992588
 10
584.9476629754
 20
-130.7133734423
 10
586.0818795113
 20
-128.0071268472
 10
587.410000134
 20
-125.5089074559
 10
588.9259649338
 20
-123.2301140705
 10
590.6228569109
 20
-121.1811443026
 10
592.4929335366
 20
-119.3713471314
 10
594.52766208
 20
-117.8089802461
 10
596.7177585416
 20
-116.5011723685
 10
599.0532300134
 20
-115.4538907261
 10
601.5234202749
 20
-114.6719138247
 10
604.1170584144
 20
-114.1588096456
 10
606.8223102559
 20
-113.9169193655
 10
609.6268323559
 20
-113.9473466743
 10
612.5178283231
 20
-114.2499527391
 10
615.4821072062
 20
-114.8233568378
 10
618.5061436803
 20
-115.6649426591
 10
621.5761397607
 20
-116.7708702399
 10
624.6780877595
 20
-118.1360934863
 10
627.7978341992
 20
-119.7543831977
 10
630.9211443926
 20
-121.6183554894
 10
634.0337673915
 20
-123.7195054833
 10
637.1215010111
 20
-126.048246114
 10
640.1702566312
 20
-128.593951872
 10
643.166123479
 20
-131.3450072858
 10
646.0954321012
 20
-134.2888599206
 10
648.9448167346
 20
-137.412077652
 10
651.7012762905
 20
-140.7004099539
 10
654.3522336763
 20
-144.1388529201
 10
656.8855931813
 20
-147.7117177241
 10
659.2897956673
 20
-151.4027022032
 10
661.5538713097
 20
-155.1949652418
 10
663.6674896506
 20
-159.0712036135
 10
665.6210067344
 20
-163.0137309316
 10
667.4055091106
 20
-167.0045583482
 10
669.0128545042
 20
-171.0254766332
 10
670.4357089668
 20
-175.0581392587
 10
671.6675803399
 20
-179.08414611
 10
672.7028478769
 20
-183.0851274412
 10
673.5367878895
 20
-187.0428276923
 10
674.1655953007
 20
-190.9391887848
 10
674.5864010064
 20
-194.7564325165
 10
674.7972849669
 20
-198.47714168
 10
674.7972849669
 20
-202.0843395326
 10
674.5864010064
 20
-205.561567258
 10
674.1655953007
 20
-208.8929590635
 10
673.5367878895
 20
-212.0633145725
 10
672.7028478769
 20
-215.0581681798
 10
671.6675803399
 20
-217.8638550554
 10
670.4357089668
 20
-220.4675734936
 10
669.0128545042
 20
-222.8574433243
 10
667.4055091106
 20
-225.0225601197
 10
665.6210067344
 20
-226.9530449484
 10
663.6674896506
 20
-228.6400894509
 10
661.5538713097
 20
-230.07599603
 10
659.2897956673
 20
-231.2542129735
 10
656.8855931813
 20
-232.1693643476
 10
654.3522336763
 20
-232.8172745264
 10
651.7012762905
 20
-233.1949872445
 10
648.9448167346
 20
-233.3007790854
 10
646.0954321012
 20
-233.1341673451
 10
643.166123479
 20
-232.6959122349
 10
640.1702566312
 20
-231.9880134121
 10
637.1215010111
 20
-231.013700857
 10
634.0337673915
 20
-229.777420134
 10
630.9211443926
 20
-228.2848121087
 10
627.7978341992
 20
-226.542687209
 10
624.6780877595
 20
-224.5589943515
 10
621.5761397607
 20
-222.3427846715
 10
618.5061436803
 20
-219.9041702255
 10
615.4821072062
 20
-217.2542778519
 10
612.5178283231
 20
-214.4051984019
 10
609.6268323559
 20
-211.3699315716
 10
606.8223102559
 20
-208.1623265872
 10
604.1170584144
 20
-204.7970190146
 10
601.5234202749
 20
-201.2893639805
 10
599.0532300134
 20
-197.6553661102
 10
596.7177585416
 20
-193.9116065025
 10
594.52766208
 20
-190.0751670739
 10
592.4929335366
 20
-186.1635526175
 10
590.6228569109
 20
-182.1946109329
 10
588.9259649338
 20
-178.1864513907
 10
587.410000134
 20
-174.1573623036
 10
586.0818795113
 20
-170.125727481
 10
584.9476629754
 20
-166.1099423479
 10
584.0125256963
 20
-162.1283300108
 10
583.2807344909
 20
-158.1990576535
 10
582.7556283546
 20
-154.3400536446
 10
582.4396032263
 20
-150.5689257343
 10
582.3341010561
 20
-146.9028807143
  0
LWPOLYLINE
  5
E6
330
1F
100
AcDbEntity
  8
0
  6
Continuous
 62
     7
370
    25
100
AcDbPolyline
 90
      104
 70
   128
 43
0.0
 10
427.0534519076
 20
-392.0157993964
 10
430.6073143303
 20
-390.0856819612
 10
434.358394845
 20
-388.2842283616
 10
438.2927391857
 20
-386.6181401232
 10
442.395711333
 20
-385.0936152037
 10
446.652047961
 20
-383.716324936
 10
451.045915218
 20
-382.4913929303
 10
455.5609676292
 20
-381.4233760141
 10
460.1804089031
 20
-380.5162472806
 10
464.8870544146
 20
-379.7733813081
 10
469.6633951334
 20
-379.1975416069
 10
474.4916627583
 20
-378.7908703385
 10
479.3538958166
 20
-378.5548803468
 10
484.232006482
 20
-378.4904495299
 10
489.1078478624
 20
-378.5978175748
 10
493.9632815076
 20
-378.8765850653
 10
498.7802448855
 20
-379.325714968
 10
503.5408185761
 20
-379.9435364901
 10
508.2272929324
 20
-380.7277512951
 10
512.8222339621
 20
-381.6754420524
 10
517.3085481828
 20
-382.78308329
 10
521.6695462109
 20
-384.0465545099
 10
525.8890048473
 20
-385.4611555161
 10
529.9512274287
 20
-387.0216239
 10
533.8411022204
 20
-388.7221546166
 10
537.5441586326
 20
-390.55642158
 10
541.0466210522
 20
-392.5176011967
 10
544.335460089
 20
-394.5983977497
 10
547.3984410458
 20
-396.791070539
 10
550.2241694322
 20
-399.087462678
 10
552.8021333531
 20
-401.4790314371
 10
555.1227426133
 20
-403.9568800233
 10
557.177364394
 20
-406.5117906771
 10
558.9583553672
 20
-409.1342589633
 10
560.4590901295
 20
-411.8145291274
 10
561.673985849
 20
-414.5426303885
 10
562.5985230338
 20
-417.3084140306
 10
563.229262345
 20
-420.1015911569
 10
563.5638573908
 20
-422.9117709652
 10
563.6010634556
 20
-425.7284994018
 10
563.3407421306
 20
-428.5412980521
 10
562.783861828
 20
-431.3397031203
 10
561.9324941793
 20
-434.1133043558
 10
560.7898063279
 20
-436.8517837798
 10
559.3600491478
 20
-439.5449540689
 10
557.6485414295
 20
-442.1827964528
 10
555.6616500943
 20
-444.7554979846
 10
553.4067665082
 20
-447.2534880457
 10
550.8922789865
 20
-449.6674739488
 10
548.1275415878
 20
-451.988475508
 10
545.1228393168
 20
-454.2078584449
 10
541.8893498633
 20
-456.3173665093
 10
538.4391020205
 20
-458.3091521926
 10
534.784930937
 20
-460.1758059212
 10
530.9404303691
 20
-461.9103836207
 10
526.9199021116
 20
-463.5064325482
 10
522.7383027936
 20
-464.9580152967
 10
518.4111882392
 20
-466.2597318831
 10
513.9546555988
 20
-467.4067398362
 10
509.3852834665
 20
-468.3947722111
 10
504.7200702067
 20
-469.2201534624
 10
499.9763707192
 20
-469.8798131178
 10
495.1718318777
 20
-470.3712971998
 10
490.3243268821
 20
-470.6927773556
 10
485.4518887695
 20
-470.8430576577
 10
480.5726433297
 20
-470.8215790537
 10
475.7047416761
 20
-470.6284214452
 10
470.8662927227
 20
-470.2643033914
 10
466.0752958173
 20
-469.7305794352
 10
461.3495737832
 20
-469.0292350649
 10
456.7067066166
 20
-468.1628793275
 10
452.1639660884
 20
-467.1347351233
 10
447.7382514916
 20
-465.9486272164
 10
443.4460267754
 20
-464.6089680059
 10
439.3032592975
 20
-463.1207411122
 10
435.325360425
 20
-461.489482837
 10
431.5271282031
 20
-459.7212615683
 10
427.922692305
 20
-457.8226552053
 10
424.5254614691
 20
-455.8007266884
 10
421.3480736172
 20
-453.6629977245
 10
418.4023488407
 20
-451.4174208057
 10
415.6992454294
 20
-449.0723496257
 10
413.2488191055
 20
-446.6365080033
 10
411.0601856157
 20
-444.1189574292
 10
409.1414868206
 20
-441.5290633571
 10
407.4998604055
 20
-438.8764603628
 10
406.1414133286
 20
-436.1710163039
 10
405.0711991023
 20
-433.4227956099
 10
404.2931989937
 20
-430.6420218422
 10
403.8103072144
 20
-427.839039662
 10
403.6243201534
 20
-425.0242763471
 10
403.7359296949
 20
-422.2082030017
 10
404.1447206441
 20
-419.4012956039
 10
404.8491722717
 20
-416.6139960334
 10
405.8466639715
 20
-413.8566732277
 10
407.1334850088
 20
-411.1395846087
 10
408.7048483248
 20
-408.4728379246
 10
410.5549083448
 20
-405.8663536482
 10
412.6767827239
 20
-403.3298280722
 10
415.0625779503
 20
-400.8726972383
 10
417.7034187088
 20
-398.5041018347
 10
420.5894808984
 20
-396.2328531917
 10
423.7100281783
 20
-394.0674005035
 10
427.0534519076
 20
-392.0157993964
  0
LWPOLYLINE
  5
E7
330
1F
100
AcDbEntity
  8
0
  6
Continuous
 62
     7
370
    25
100
AcDbPolyline
 90
       94
 70
   128
 43
0.0
 10
437.3772109129
 20
-397.9755786127
 10
434.3607394562
 20
-399.8387607314
 10
431.5690358072
 20
-401.8152517904
 10
429.0148378694
 20
-403.8960335141
 10
426.7097998622
 20
-406.071611773
 10
424.6644391453
 20
-408.3320599023
 10
422.8880882305
 20
-410.6670639957
 10
421.3888521996
 20
-413.0659699652
 10
420.1735717228
 20
-415.5178321529
 10
419.2477918461
 20
-418.0114632741
 10
418.6157366909
 20
-420.5354854619
 10
418.2802901797
 20
-423.078382182
 10
418.2429828781
 20
-425.6285507798
 10
418.5039850108
 20
-428.1743554211
 10
419.0621056848
 20
-430.704180183
 10
419.9147983236
 20
-433.2064820555
 10
421.0581722862
 20
-435.669843609
 10
422.4870106195
 20
-438.0830250898
 10
424.1947938618
 20
-440.4350157042
 10
426.17372979
 20
-442.7150838586
 10
428.4147889733
 20
-444.9128261249
 10
430.9077459726
 20
-447.0182147092
 10
433.641225997
 20
-449.0216432063
 10
436.6027568039
 20
-450.9139704315
 10
439.7788256078
 20
-452.6865621296
 10
443.1549407349
 20
-454.3313303714
 10
446.7156977464
 20
-455.8407704565
 10
450.4448497247
 20
-457.2079951561
 10
454.3253814047
 20
-458.4267661375
 10
458.3395868103
 20
-459.4915224282
 10
462.4691500429
 20
-460.3974057894
 10
466.6952288528
 20
-461.1402828831
 10
470.9985406115
 20
-461.7167641317
 10
475.3594502946
 20
-462.1242191832
 10
479.7580600713
 20
-462.3607889139
 10
484.1743000942
 20
-462.4253939103
 10
488.5880200728
 20
-462.3177393945
 10
492.9790812154
 20
-462.0383165695
 10
497.3274481169
 20
-461.5884003776
 10
501.6132801766
 20
-460.970043683
 10
505.8170221259
 20
-460.1860679057
 10
509.9194932543
 20
-459.2400501471
 10
513.901974927
 20
-458.1363068695
 10
517.7462959936
 20
-456.8798742002
 10
521.4349156988
 20
-455.4764849534
 10
524.9510037169
 20
-453.9325424721
 10
528.2785169447
 20
-452.255091412
 10
531.4022727026
 20
-450.4517855974
 10
534.3080180095
 20
-448.5308530992
 10
536.9824946161
 20
-446.5010586917
 10
539.4134994989
 20
-444.3716638614
 10
541.5899405403
 20
-442.1523845483
 10
543.5018871391
 20
-439.853346815
 10
545.1406155213
 20
-437.4850406434
 10
546.4986485453
 20
-435.0582720714
 10
547.5697898178
 20
-432.5841138872
 10
548.349151967
 20
-430.0738551073
 10
548.833178942
 20
-427.5389494667
 10
549.0196622388
 20
-424.9909631584
 10
548.9077509768
 20
-422.4415220596
 10
548.4979557816
 20
-419.9022586853
 10
547.7921464546
 20
-417.3847591117
 10
546.7935434418
 20
-414.9005101121
 10
545.5067031398
 20
-412.4608467449
 10
543.9374971057
 20
-410.0769006344
 10
542.0930852668
 20
-407.75954918
 10
539.9818832511
 20
-405.5193659248
 10
537.6135239894
 20
-403.3665723112
 10
534.9988137617
 20
-401.3109910427
 10
532.149682891
 20
-399.3620012652
 10
529.0791313081
 20
-397.5284957721
 10
525.8011692355
 20
-395.8188404282
 10
522.3307532624
 20
-394.2408359989
 10
518.6837181008
 20
-392.8016825565
 10
514.8767043358
 20
-391.5079466279
 10
510.9270824979
 20
-390.3655312336
 10
506.8528738058
 20
-389.3796489528
 10
502.6726679392
 20
-388.5547981405
 10
498.4055382187
 20
-387.8947424016
 10
494.0709545785
 20
-387.402493419
 10
489.6886947296
 20
-387.080297212
 10
485.2787539186
 20
-386.929623888
 10
480.8612536939
 20
-386.9511609348
 10
476.4563500958
 20
-387.1448100837
 10
472.0841416892
 20
-387.5096877582
 10
467.7645778582
 20
-388.0441291051
 10
463.5173677819
 20
-388.7456955911
 10
459.3618905056
 20
-389.6111861293
 10
455.3171065191
 20
-390.6366516847
 10
451.401471244
 20
-391.8174132934
 10
447.632850826
 20
-393.1480834109
 10
444.0284406156
 20
-394.6225904946
 10
440.60468671
 20
-396.2342067069
 10
437.3772109129
 20
-397.9755786127
  0
LWPOLYLINE
  5
E8
330
1F
100
AcDbEntity
  8
0
  6
Continuous
 62
     1
370
    25
100
AcDbPolyline
 90
       14
 70
   128
 43
0.0
 10
540.1905368974
 20
-289.9481979107
 10
543.6391799734
 20
-291.8175537638
 10
547.0749938707
 20
-293.4369486543
 10
550.4851971359
 20
-294.8003583269
 10
553.8571035888
 20
-295.9027108079
 10
557.178169516
 20
-296.7399052738
 10
560.4360403341
 20
-297.3088273062
 10
563.6185965496
 20
-297.6073604777
 10
566.7139988446
 20
-297.6343942253
 10
569.710732119
 20
-297.3898279817
 10
572.5976483283
 20
-296.8745715495
 10
575.3640079545
 20
-296.0905417163
 10
577.9995199583
 20
-295.0406551247
 10
580.1872862029
 20
-293.9088419503
  0
LWPOLYLINE
  5
E9
330
1F
100
AcDbEntity
  8
0
  6
Continuous
 62
     1
370
    25
100
AcDbPolyline
 90
       40
 70
   128
 43
0.0
 10
500.193787592
 20
-155.3410239694
 10
498.6949298669
 20
-156.2737115715
 10
496.428276563
 20
-157.9690260548
 10
494.3244217419
 20
-159.9123048897
 10
492.3911918816
 20
-162.0963189514
 10
490.6357787243
 20
-164.5129435641
 10
489.0647125221
 20
-167.1531887255
 10
487.6838377446
 20
-170.0072325503
 10
486.4982913366
 20
-173.0644578078
 10
485.5124836086
 20
-176.3134914194
 10
484.73008183
 20
-179.7422467667
 10
484.153996587
 20
-183.3379686545
 10
483.7863709545
 20
-187.0872807612
 10
483.6285725238
 20
-190.9762353996
 10
483.6811883157
 20
-194.990365403
 10
483.9440225958
 20
-199.1147379441
 10
484.4160976034
 20
-203.3340100862
 10
485.0956571885
 20
-207.6324858597
 10
485.9801733447
 20
-211.9941746526
 10
487.0663556139
 20
-216.4028506959
 10
488.3501633266
 20
-220.8421134253
 10
489.826820634
 20
-225.2954484918
 10
491.4908342737
 20
-229.7462891965
 10
493.3360140058
 20
-234.1780781196
 10
495.3554956405
 20
-238.5743287153
 10
497.5417665734
 20
-242.9186866425
 10
499.8866937331
 20
-247.1949906045
 10
502.3815538366
 20
-251.3873324697
 10
505.0170658403
 20
-255.480116451
 10
507.7834254666
 20
-259.458117123
 10
510.6703416759
 20
-263.3065360622
 10
513.6670749503
 20
-267.0110568972
 10
516.7624772452
 20
-270.5578985672
 10
519.9450334608
 20
-273.9338665882
 10
523.2029042789
 20
-277.1264021376
 10
526.5239702061
 20
-280.1236287733
 10
529.895876659
 20
-282.9143966154
 10
533.3060799241
 20
-285.4883238242
 10
536.7418938214
 20
-287.8358352215
 10
540.1905368974
 20
-289.9481979107
  0
LWPOLYLINE
  5
EA
330
1F
100
AcDbEntity
  8
0
  6
Continuous
 62
     1
370
    25
100
AcDbPolyline
 90
       14
 70
   128
 43
0.0
 10
540.1905368974
 20
-289.9481979107
 10
543.5339606267
 20
-291.9997990178
 10
546.6545079066
 20
-294.165251706
 10
549.5405700962
 20
-296.4365003489
 10
552.1814108547
 20
-298.8050957526
 10
554.567206081
 20
-301.2622265865
 10
556.6890804602
 20
-303.7987521625
 10
558.5391404802
 20
-306.4052364389
 10
560.1105037962
 20
-309.071983123
 10
561.3973248335
 20
-311.789071742
 10
562.3948165333
 20
-314.5463945477
 10
563.0992681609
 20
-317.3336941182
 10
563.5080591101
 20
-320.140601516
 10
563.6219944025
 20
-322.6045223836
  0
LWPOLYLINE
  5
EB
330
1F
100
AcDbEntity
  8
0
  6
Continuous
 62
     1
370
    25
100
AcDbPolyline
 90
       40
 70
   128
 43
0.0
 10
403.6219944025
 20
-322.6045223836
 10
403.6801314142
 20
-320.8441694794
 10
404.01472646
 20
-318.0339896712
 10
404.6454657712
 20
-315.2408125448
 10
405.570002956
 20
-312.4750289027
 10
406.7848986755
 20
-309.7469276417
 10
408.2856334378
 20
-307.0666574776
 10
410.066624411
 20
-304.4441891914
 10
412.1212461917
 20
-301.8892785375
 10
414.4418554519
 20
-299.4114299513
 10
417.0198193728
 20
-297.0198611923
 10
419.8455477592
 20
-294.7234690533
 10
422.908528716
 20
-292.530796264
 10
426.1973677528
 20
-290.449999711
 10
429.6998301724
 20
-288.4888200943
 10
433.4028865846
 20
-286.6545531309
 10
437.2927613763
 20
-284.9540224142
 10
441.3549839577
 20
-283.3935540304
 10
445.5744425941
 20
-281.9789530242
 10
449.9354406222
 20
-280.7154818043
 10
454.4217548429
 20
-279.6078405667
 10
459.0166958726
 20
-278.6601498094
 10
463.7031702289
 20
-277.8759350044
 10
468.4637439195
 20
-277.2581134823
 10
473.2807072974
 20
-276.8089835796
 10
478.1361409426
 20
-276.5302160891
 10
483.011982323
 20
-276.4228480442
 10
487.8900929883
 20
-276.4872788611
 10
492.7523260466
 20
-276.7232688528
 10
497.5805936716
 20
-277.1299401212
 10
502.3569343904
 20
-277.7057798224
 10
507.0635799019
 20
-278.4486457949
 10
511.6830211758
 20
-279.3557745284
 10
516.198073587
 20
-280.4237914446
 10
520.591940844
 20
-281.6487234503
 10
524.848277472
 20
-283.026013718
 10
528.9512496193
 20
-284.5505386375
 10
532.88559396
 20
-286.2166268759
 10
536.6366744746
 20
-288.0180804755
 10
540.1905368974
 20
-289.9481979107
  0
ENDSEC
  0
SECTION
  2
OBJECTS
  0
DICTIONARY
  5
C
330
0
100
AcDbDictionary
281
     1
  3
ACAD_GROUP
350
D
  3
ACAD_LAYOUT
350
1A
  3
ACAD_MLINESTYLE
350
17
  3
ACAD_PLOTSETTINGS
350
19
  3
ACAD_PLOTSTYLENAME
350
E
  3
ACAD_SCALELIST
350
47
  3
DWGPROPS
350
EC
  0
DICTIONARY
  5
D
102
{ACAD_REACTORS
330
C
102
}
330
C
100
AcDbDictionary
281
     1
  0
DICTIONARY
  5
1A
102
{ACAD_REACTORS
330
C
102
}
330
C
100
AcDbDictionary
281
     1
  3
Layout1
350
1E
  3
Layout2
350
26
  3
Model
350
22
  0
DICTIONARY
  5
17
102
{ACAD_REACTORS
330
C
102
}
330
C
100
AcDbDictionary
281
     1
  3
Standard
350
18
  0
DICTIONARY
  5
19
102
{ACAD_REACTORS
330
C
102
}
330
C
100
AcDbDictionary
281
     1
  0
ACDBDICTIONARYWDFLT
  5
E
102
{ACAD_REACTORS
330
C
102
}
330
C
100
AcDbDictionary
281
     1
  3
Normal
350
F
100
AcDbDictionaryWithDefault
340
F
  0
DICTIONARY
  5
47
102
{ACAD_REACTORS
330
C
102
}
330
C
100
AcDbDictionary
281
     1
  3
A0
350
48
  3
A1
350
49
  3
A2
350
4A
  3
A3
350
4B
  3
A4
350
4C
  3
A5
350
4D
  3
A6
350
4E
  3
A7
350
4F
  3
A8
350
50
  3
A9
350
51
  3
B0
350
52
  3
B1
350
53
  3
B2
350
54
  3
B3
350
55
  3
B4
350
56
  3
B5
350
57
  3
B6
350
58
  3
B7
350
59
  3
B8
350
5A
  3
B9
350
5B
  3
C0
350
5C
  3
C1
350
5D
  3
C2
350
5E
  3
C3
350
5F
  3
C4
350
60
  3
C5
350
61
  3
C6
350
62
  3
C7
350
63
  3
C8
350
64
  3
C9
350
65
  3
D0
350
66
  3
D1
350
67
  3
D2
350
68
  0
XRECORD
  5
EC
102
{ACAD_REACTORS
330
C
102
}
330
C
100
AcDbXrecord
280
     1
  1
DWGPROPS COOKIE
  2

  3

  4

  6

  7

  8
b.kav
  9

300
=
301
=
302
=
303
=
304
=
305
=
306
=
307
=
308
=
309
=
 40
0.0
 41
2459935.574379514
 42
2459935.574379699
  1

 90
        0
  0
LAYOUT
  5
1E
102
{ACAD_REACTORS
330
1A
102
}
330
1A
100
AcDbPlotSettings
  1

  2
none_device
  4

  6

 40
0.0
 41
0.0
 42
0.0
 43
0.0
 44
0.0
 45
0.0
 46
0.0
 47
0.0
 48
0.0
 49
0.0
140
0.0
141
0.0
142
1.0
143
1.0
 70
   688
 72
     1
 73
     0
 74
     5
  7

 75
    16
147
1.0
148
0.0
149
0.0
100
AcDbLayout
  1
Layout1
 70
     1
 71
     1
 10
0.0
 20
0.0
 11
420.0
 21
297.0
 12
0.0
 22
0.0
 32
0.0
 14
1.0000000000E+20
 24
1.0000000000E+20
 34
1.0000000000E+20
 15
-1.0000000000E+20
 25
-1.0000000000E+20
 35
-1.0000000000E+20
146
0.0
 13
0.0
 23
0.0
 33
0.0
 16
1.0
 26
0.0
 36
0.0
 17
0.0
 27
1.0
 37
0.0
 76
     0
330
1B
  0
LAYOUT
  5
26
102
{ACAD_REACTORS
330
1A
102
}
330
1A
100
AcDbPlotSettings
  1

  2
none_device
  4

  6

 40
0.0
 41
0.0
 42
0.0
 43
0.0
 44
0.0
 45
0.0
 46
0.0
 47
0.0
 48
0.0
 49
0.0
140
0.0
141
0.0
142
1.0
143
1.0
 70
   688
 72
     1
 73
     0
 74
     5
  7

 75
    16
147
1.0
148
0.0
149
0.0
100
AcDbLayout
  1
Layout2
 70
     1
 71
     2
 10
0.0
 20
0.0
 11
0.0
 21
0.0
 12
0.0
 22
0.0
 32
0.0
 14
0.0
 24
0.0
 34
0.0
 15
0.0
 25
0.0
 35
0.0
146
0.0
 13
0.0
 23
0.0
 33
0.0
 16
1.0
 26
0.0
 36
0.0
 17
0.0
 27
1.0
 37
0.0
 76
     0
330
23
  0
LAYOUT
  5
22
102
{ACAD_REACTORS
330
1A
102
}
330
1A
100
AcDbPlotSettings
  1

  2
none_device
  4
Letter_(8.50_x_11.00_Inches)
  6

 40
6.35
 41
6.35
 42
6.35000508
 43
6.35000508
 44
215.9
 45
279.4
 46
0.0
 47
0.0
 48
0.0
 49
0.0
140
0.0
141
0.0
142
1.0
143
1.0
 70
  1712
 72
     1
 73
     0
 74
     0
  7

 75
     0
147
1.0
148
0.0
149
0.0
100
AcDbLayout
  1
Model
 70
     1
 71
     0
 10
0.0
 20
0.0
 11
279.4
 21
215.9
 12
0.0
 22
0.0
 32
0.0
 14
0.0
 24
0.0
 34
0.0
 15
279.4
 25
215.9
 35
0.0
146
0.0
 13
0.0
 23
0.0
 33
0.0
 16
1.0
 26
0.0
 36
0.0
 17
0.0
 27
1.0
 37
0.0
 76
     0
330
1F
331
29
  0
MLINESTYLE
  5
18
102
{ACAD_REACTORS
330
17
102
}
330
17
100
AcDbMlineStyle
  2
Standard
 70
     0
  3

 62
   256
 51
90.0
 52
90.0
 71
     2
 49
0.5
 62
   256
  6
BYLAYER
 49
-0.5
 62
   256
  6
BYLAYER
  0
ACDBPLACEHOLDER
  5
F
102
{ACAD_REACTORS
330
E
102
}
330
E
  0
SCALE
  5
48
102
{ACAD_REACTORS
330
47
102
}
330
47
100
AcDbScale
 70
     0
300
1:1
140
1.0
141
1.0
290
     1
  0
SCALE
  5
49
102
{ACAD_REACTORS
330
47
102
}
330
47
100
AcDbScale
 70
     0
300
1:2
140
1.0
141
2.0
290
     0
  0
SCALE
  5
4A
102
{ACAD_REACTORS
330
47
102
}
330
47
100
AcDbScale
 70
     0
300
1:4
140
1.0
141
4.0
290
     0
  0
SCALE
  5
4B
102
{ACAD_REACTORS
330
47
102
}
330
47
100
AcDbScale
 70
     0
300
1:5
140
1.0
141
5.0
290
     0
  0
SCALE
  5
4C
102
{ACAD_REACTORS
330
47
102
}
330
47
100
AcDbScale
 70
     0
300
1:8
140
1.0
141
8.0
290
     0
  0
SCALE
  5
4D
102
{ACAD_REACTORS
330
47
102
}
330
47
100
AcDbScale
 70
     0
300
1:10
140
1.0
141
10.0
290
     0
  0
SCALE
  5
4E
102
{ACAD_REACTORS
330
47
102
}
330
47
100
AcDbScale
 70
     0
300
1:16
140
1.0
141
16.0
290
     0
  0
SCALE
  5
4F
102
{ACAD_REACTORS
330
47
102
}
330
47
100
AcDbScale
 70
     0
300
1:20
140
1.0
141
20.0
290
     0
  0
SCALE
  5
50
102
{ACAD_REACTORS
330
47
102
}
330
47
100
AcDbScale
 70
     0
300
1:30
140
1.0
141
30.0
290
     0
  0
SCALE
  5
51
102
{ACAD_REACTORS
330
47
102
}
330
47
100
AcDbScale
 70
     0
300
1:40
140
1.0
141
40.0
290
     0
  0
SCALE
  5
52
102
{ACAD_REACTORS
330
47
102
}
330
47
100
AcDbScale
 70
     0
300
1:50
140
1.0
141
50.0
290
     0
  0
SCALE
  5
53
102
{ACAD_REACTORS
330
47
102
}
330
47
100
AcDbScale
 70
     0
300
1:100
140
1.0
141
100.0
290
     0
  0
SCALE
  5
54
102
{ACAD_REACTORS
330
47
102
}
330
47
100
AcDbScale
 70
     0
300
2:1
140
2.0
141
1.0
290
     0
  0
SCALE
  5
55
102
{ACAD_REACTORS
330
47
102
}
330
47
100
AcDbScale
 70
     0
300
4:1
140
4.0
141
1.0
290
     0
  0
SCALE
  5
56
102
{ACAD_REACTORS
330
47
102
}
330
47
100
AcDbScale
 70
     0
300
8:1
140
8.0
141
1.0
290
     0
  0
SCALE
  5
57
102
{ACAD_REACTORS
330
47
102
}
330
47
100
AcDbScale
 70
     0
300
10:1
140
10.0
141
1.0
290
     0
  0
SCALE
  5
58
102
{ACAD_REACTORS
330
47
102
}
330
47
100
AcDbScale
 70
     0
300
100:1
140
100.0
141
1.0
290
     0
  0
SCALE
  5
59
102
{ACAD_REACTORS
330
47
102
}
330
47
100
AcDbScale
 70
     0
300
1/128" = 1'-0"
140
0.0078125
141
12.0
290
     0
  0
SCALE
  5
5A
102
{ACAD_REACTORS
330
47
102
}
330
47
100
AcDbScale
 70
     0
300
1/64" = 1'-0"
140
0.015625
141
12.0
290
     0
  0
SCALE
  5
5B
102
{ACAD_REACTORS
330
47
102
}
330
47
100
AcDbScale
 70
     0
300
1/32" = 1'-0"
140
0.03125
141
12.0
290
     0
  0
SCALE
  5
5C
102
{ACAD_REACTORS
330
47
102
}
330
47
100
AcDbScale
 70
     0
300
1/16" = 1'-0"
140
0.0625
141
12.0
290
     0
  0
SCALE
  5
5D
102
{ACAD_REACTORS
330
47
102
}
330
47
100
AcDbScale
 70
     0
300
3/32" = 1'-0"
140
0.09375
141
12.0
290
     0
  0
SCALE
  5
5E
102
{ACAD_REACTORS
330
47
102
}
330
47
100
AcDbScale
 70
     0
300
1/8" = 1'-0"
140
0.125
141
12.0
290
     0
  0
SCALE
  5
5F
102
{ACAD_REACTORS
330
47
102
}
330
47
100
AcDbScale
 70
     0
300
3/16" = 1'-0"
140
0.1875
141
12.0
290
     0
  0
SCALE
  5
60
102
{ACAD_REACTORS
330
47
102
}
330
47
100
AcDbScale
 70
     0
300
1/4" = 1'-0"
140
0.25
141
12.0
290
     0
  0
SCALE
  5
61
102
{ACAD_REACTORS
330
47
102
}
330
47
100
AcDbScale
 70
     0
300
3/8" = 1'-0"
140
0.375
141
12.0
290
     0
  0
SCALE
  5
62
102
{ACAD_REACTORS
330
47
102
}
330
47
100
AcDbScale
 70
     0
300
1/2" = 1'-0"
140
0.5
141
12.0
290
     0
  0
SCALE
  5
63
102
{ACAD_REACTORS
330
47
102
}
330
47
100
AcDbScale
 70
     0
300
3/4" = 1'-0"
140
0.75
141
12.0
290
     0
  0
SCALE
  5
64
102
{ACAD_REACTORS
330
47
102
}
330
47
100
AcDbScale
 70
     0
300
1" = 1'-0"
140
1.0
141
12.0
290
     0
  0
SCALE
  5
65
102
{ACAD_REACTORS
330
47
102
}
330
47
100
AcDbScale
 70
     0
300
1-1/2" = 1'-0"
140
1.5
141
12.0
290
     0
  0
SCALE
  5
66
102
{ACAD_REACTORS
330
47
102
}
330
47
100
AcDbScale
 70
     0
300
3" = 1'-0"
140
3.0
141
12.0
290
     0
  0
SCALE
  5
67
102
{ACAD_REACTORS
330
47
102
}
330
47
100
AcDbScale
 70
     0
300
6" = 1'-0"
140
6.0
141
12.0
290
     0
  0
SCALE
  5
68
102
{ACAD_REACTORS
330
47
102
}
330
47
100
AcDbScale
 70
     0
300
1'-0" = 1'-0"
140
12.0
141
12.0
290
     0
  0
ENDSEC
  0
EOF
